segunda-feira, 20 de agosto de 2012

REGES DANESE MEU ISAQUE

Reges danese meu isaque

INTRO

e-----------------------------------------------------------------------------------------------------------
b-----------------------------------------------~12/15~~-12-14-15-14-------11—13/16~~~~--------

g--~------7-9-9/11---9/11-9-11—11/12-------------------------------14-------------------------------

d--7-9-----------------------------------------------------------------------------------------------------

a----------------------------------------------------------------------------------------------------------

E----------------------------------------------------------------------------------------------------------

1.43

e-17--17-15-13-15-15----15-15-13-11-13-13------13------------------------------------------------------------17-------17-24~~

b------------------B1---13-----------------B1-----11-----13--13-11-10-13--------------------15-17------15-17---15-17----

g--~---------------------------------------------------------B1/2--------------10-12-14-12-14----------14-------------------------

d-----------------------------------------------------------------------------------------------------------------------------------------

a------------------------------------------------------------------------------------------------------------------------------------------

E-----------------------------------------------------------------------------------------------------------------------------------------

  final  e--------------------------------------------------------------------------------------------------------------TECLADO

b-----------------------------------------------~12/15~~-12-14-15-14-------11—13/16~~~~--------

g--~------7-9-9/11---9/11-9-11—11/12--------------------------------14-------------------------------

d--7-9--------------------------------------------------------------------------------------------------------

a--------------------------------------------------------------------------------------------------------------

E------------------------------------------------------------------------------------------------------------

Nenhum comentário:

Postar um comentário