segunda-feira, 17 de setembro de 2012

DIANTE DO TRONO



Canção do Apocalipse    Diante do Trono   

Solo 1:1.49

E|------|-----|-----------------------|----------------------------|
B|------|-----|-----M-----------------|----------------------------|
G|------|-----|-11-12-11~~~-M---------|9-12-11--9-12-11--7-9-7~~~~-|
D|------|9/12~|-------------12-12/14~~|----------------------------|
A|8/12~~|-----|-----------------------|----------------------------|
E|------|-----|-----------------------|----------------------------|

~                                           .......OU......
E|--------------------|-------------------|-----------------------|
B|---------M---M------|-------------------|----8------------------|
G|---5---4-5-4-5—5/7~~|------12-11~~~~~~--|--7---7~~~~~~----------|
D|-5-5-5--------------|-12~~--------------|-----------------------|
A|--------------------|-------------------|-----------------------|
E|--------------------|-------------------|-----------------------|

Solo 2:3.04

E|---------------M----------M-----------|-----------------------|
B|-10~-8~-7~~~-9-10-9-----7/8-7-M---M---|-----------------------|
G|--------------------7-9-------9-7-9~~~|-----------------------|


B|---13---12-12---------~12-13-12-13-15-15~~~~-|------------------------|
G|12---12-------14-12~~------M-----M-B1--------|-11-12-11-12-12/14~~~~--|
D|---------------M---------------------FULL----|-----M-----M------------|

Solo de VIOLAO e teclado:3.33

E|-------|------|---------|-------|---------------|-------------------|-------------|
B|-------|------|---------|-------|---------------|---------10-12-13~~|-10-12-13~~~~|
G|-------|------|---------|-------|--M--------M---|9-9-9-10-----------|-------------|
D|7-9-10-|7-9-10|-10-9-7--|-------|9-10-9---9-10-9|-------------------|-------------|
A|-------|------|-------10|7-10-10|------12-------|-------------------|-------------|
E|-------|------|---------|-------|---------------|-------------------|-------------|

B|--------------|-----------|
G|-13-12-10-----|-9-12-12~~-|
D|---------12~~~|-----------|

fim

segunda-feira, 20 de agosto de 2012

REGES DANESE MEU ISAQUE

Reges danese meu isaque

INTRO

e-----------------------------------------------------------------------------------------------------------
b-----------------------------------------------~12/15~~-12-14-15-14-------11—13/16~~~~--------

g--~------7-9-9/11---9/11-9-11—11/12-------------------------------14-------------------------------

d--7-9-----------------------------------------------------------------------------------------------------

a----------------------------------------------------------------------------------------------------------

E----------------------------------------------------------------------------------------------------------

1.43

e-17--17-15-13-15-15----15-15-13-11-13-13------13------------------------------------------------------------17-------17-24~~

b------------------B1---13-----------------B1-----11-----13--13-11-10-13--------------------15-17------15-17---15-17----

g--~---------------------------------------------------------B1/2--------------10-12-14-12-14----------14-------------------------

d-----------------------------------------------------------------------------------------------------------------------------------------

a------------------------------------------------------------------------------------------------------------------------------------------

E-----------------------------------------------------------------------------------------------------------------------------------------

  final  e--------------------------------------------------------------------------------------------------------------TECLADO

b-----------------------------------------------~12/15~~-12-14-15-14-------11—13/16~~~~--------

g--~------7-9-9/11---9/11-9-11—11/12--------------------------------14-------------------------------

d--7-9--------------------------------------------------------------------------------------------------------

a--------------------------------------------------------------------------------------------------------------

E------------------------------------------------------------------------------------------------------------

quinta-feira, 2 de agosto de 2012

REGES DANESE TABLATURA TUAS PRIMICIAS

REGES DANESE TABLATURA TUAS PRIMICIAS

Primícias reges danese


3.31



e--------------------------------------------------------------

d-----------------------------------13-15—15---12~~----

g-----------------10/12~~--12-----------b1---------------

d----9-10-12------------------------------------------------

a--------------------------------------------------------------

e--------------------------------------------------------------



e--------------------------------------------------------------

d----------13-15/17-18-18~~~~------------------------

g-----14---------------------b1-----------------------------

d-----b1-----------------------------------------------------

a--------------------------------------------------------------

e--------------------------------------------------------------



e--~12-20-----------------------------------------------------

d----------t----------------------------------------------------

g----------------12-14--19--14-17------19-14-17-21--14-12----

d----------14--------m--t---------t---14-t--------t----t------------

a--------------------------------------------------------------

e--------------------------------------------------------------



e--------------------------------------------------------------

d--------------------------------------------------------------

g-------12-14------------------------------------------------------

d--14-----------9-10-12-10------------------------------------------

a---------------------------------12-15--17--15-12-15-12~~-------

e--------------------------------------m---t-------------------------



e--------------------------------------------------------------

d--------------------------------------------------------------

g--------------------------------------------------------------

d--------------------14-12------------------

a-12-15------15-----------15~~--------------

e----------12----------------------------------



FIM....

terça-feira, 13 de março de 2012

PATCHES DE PEDALEIRAS DIVERSAS

NOVA INAUGURAÇÃO
AGORA TEREMOS ESTE NOVO QUADRO NO BLOG CONFIRA OS ENDEREÇOS




PATCHES DE PEDALEIRAS DIVERSAS

Para quem não sabe o que é patche, são bancos editados de efeitos
para uma pedaleira multiefeitos. Efeitos progamados por usuários
da net que deixam suas configurações nestes sites disponíveis
para outras pessoas.



GUITAR PATCHES
http://guitarpatches.com/units.php

CONFIRA...
------------------------------------------------------
CIFRA CLUB PATCHES

http://www.cifraclub.com.br/patch.php

sexta-feira, 20 de janeiro de 2012

TABLATURA RESSUSCITA-ME - ALINE BARROS

RESSUSCITA-ME ALINE BARROS
OBS: (SEM ALAVANCA)
COM O USO DA ALAVANCA SERIA UM POUCO
DIFERENTE TERIAMOS POUCAS NOTAS.
POR ROSANE FREITAS




RESSUSCITA-ME ALINE BARROS
OBS: (SEM ALAVANCA)
COM O USO DA ALAVANCA SERIA UM POUCO
DIFERENTE TERIAMOS POUCAS NOTAS.

E----------------------------------------------------------------------------
B-------------------------------------------------------------------15---------
G—8/14~~--------------------------------14---------------------------
D-------------19/14~~------~14-16-17-----17-----15/12------
A----------------------------------------------------------------------------
E----------------------------------------------------------------------------

e----------------------------------------------------------------------------
B—9/12—9/12--9/12----9-11-12-11~~~~------------------------
G----------------------------------------------------------------------------
D----------------------------------------------------------------------------
A----------------------------------------------------------------------------
E----------------------------------------------------------------------------

e----------------------------------------------------------------------------
B----------------------------------------------------------------------------
G----------------------------------------------------------------------------
D--12-11--10—12~~--8/12------------------------------------------
A----------------------------------------------------------------------------
E----------------------------------------------------------------------------

quinta-feira, 12 de janeiro de 2012