quinta-feira, 2 de agosto de 2012

REGES DANESE TABLATURA TUAS PRIMICIAS

REGES DANESE TABLATURA TUAS PRIMICIAS

Primícias reges danese


3.31



e--------------------------------------------------------------

d-----------------------------------13-15—15---12~~----

g-----------------10/12~~--12-----------b1---------------

d----9-10-12------------------------------------------------

a--------------------------------------------------------------

e--------------------------------------------------------------



e--------------------------------------------------------------

d----------13-15/17-18-18~~~~------------------------

g-----14---------------------b1-----------------------------

d-----b1-----------------------------------------------------

a--------------------------------------------------------------

e--------------------------------------------------------------



e--~12-20-----------------------------------------------------

d----------t----------------------------------------------------

g----------------12-14--19--14-17------19-14-17-21--14-12----

d----------14--------m--t---------t---14-t--------t----t------------

a--------------------------------------------------------------

e--------------------------------------------------------------



e--------------------------------------------------------------

d--------------------------------------------------------------

g-------12-14------------------------------------------------------

d--14-----------9-10-12-10------------------------------------------

a---------------------------------12-15--17--15-12-15-12~~-------

e--------------------------------------m---t-------------------------



e--------------------------------------------------------------

d--------------------------------------------------------------

g--------------------------------------------------------------

d--------------------14-12------------------

a-12-15------15-----------15~~--------------

e----------12----------------------------------



FIM....