terça-feira, 4 de outubro de 2011

MINISTÉRIO VILA IPIRANGA


MINISTÉRIO VILA IPIRANGA

MINISTÉRIO VILA IPIRANGA
MUSICA: Nao posso parar
QUEM CANTA: ministerio ipiranga
ALBUM: Chegou a minha vez
INTRO
solo: 02:45


e---------------------20---------b1-----
b---12/16-15-16-------18~~~21----
g------------------------------------------
d-------------------------------------------
a-------------------------------------------
e-------------------------------------------


e-------------------------------------------
b--21-20-16------------------------------
g--------------15-13-12------------------
d----------------------------15-13-12----
a----------------------------------------15-13-10-8~
e-------------------------------------------


e--------------10-15-13-10-13-10-------
b----------13---------------------------------
g------------------------------------------
d-10-13-----------------------------------
a-------------------------------------------
e-------------------------------------------
e------------------—------15---b1------
b-16-15-b1-----16-18---------18~~~~-----
g---------17---------------------------------
d-------------------------------------------
a-------------------------------------------
e-------------------------------------------


e---------------18-b1-------------------
b--13-15-16------18-18---16----------
g----------------------------------17~~~~-
d-------------------------------------------
a-------------------------------------------
e-------------------------------------------
3.10
e---------------18--18-18—18~~~~~~--
b--13-15-16-------b1-b1--------
g------------------------------------
d------------------------------------
a--------------------------------
e------------------------------

sábado, 14 de maio de 2011

Eros Biondini



EROS BIONDINI
FOGO DO ESPÍRITO - SOLO

e-------|----------------------------------------
b-------|-----10-10--8------------------m----
g-10~~|------b1---------9-9--7-----7-9------
d-b1---|---------------------------9------------
a-------|----------------------------------------
e-------|----------------------------------------


e--------|---------------------------8/12~~~~
b—10~|---10-8----10----10-8--------------
g---b1--|-------------b1-----------------------
d--------|---------------------------------------
a--------|---------------------------------------
e--------|---------------------------------------

e-----------------------------------------------
b-13-12---------------------------------------
g-----------14--12-11----------------------
d-------------------------14-13-12-11~~
a-----------------------------------------------
e-----------------------------------------------

FIM:)

CHUVA DE GRAÇA - EROS BIONDINI

fazer o ben e soltar um pouco
varias vezes
e-------------------------------
b-12-12-12--12---12~~~~
g—b1---b1--------b1--------
d-----------------------------
a----------------------------
e----------------------------

e----------------------------------
b--10-9-10-9------------6/9~~
g---m----m--------11-9--------
d---------------------------------
a---------------------------------
e---------------------------------

se quiser pode usar a alvanca
nas notas alvo

e-----------------------------
b—6/9~~4/7—3/5~~------
g------------------------------
d-----------------------------
a----------------------------
e----------------------------

nesta parte é feito um t = tapping
mas é com a palheta
use a parte lateral da palheta
com a ponta pra cima
palhete ao lado batendo na corda
ao invés do dedo
as notas da frente são ligadas
(vai puxando para trás no braço)
Foi o melhor modo de interpretar isso
Joe Satriani usa esta técnica.
Muito boa...

Taping em todas (12)
............t
e—11/12-12-12---
b---------
g--------
d---------
a--------
e-------

e--9/12-12-12-
b------------
g------------
d----------
a-----------
e---------

e--7/12-12-12--
b----------------
g--------------
d--------------
a------------
e------------

e—5/12-12-12-
b----------------
g-------------
d------------
a--------------
e-------------

e--7/12-12-12---
b-------------------
g------------------
d----------------
a------------
e------------


e--5/12-12-12-
b----------------
g----------------
d----------------
a----------------
e--------------

e--12-4~~--
b-----------
g----------
d-----------
a----------
e----------

e—------------------------
b--8/12--10-9-9---------
g---------------------------
d---------------------------
a---------------------------
e---------------------------

alavanca*
e—------------------------19—19* ~~--
b---9/10-9-6/9-7~~-----------------
g------------------------------
d-----------------------------
a----------------------------
e----------------------------

FIM:)

Eros Biondini - TEMPO DA GRAÇA –

INÍCIO –


e—9-7-9-----9-7-9--------------------------
b-----------------------------------------------
g---------9------------11--9--7-6----9-7-6-
d-----------------------------------------------


e—9-7-9-----9-7-9----14-12-10-----12-10------
b-------------------------------------14----------14-
g---------9-------------------------------------------
d--------------------------------------------

SOLO:

T- TAPING
(* )(este bend fica sustenso) em todos os tapings
Até o final e aproveitado o mesmo bend
Apenas acrescentar o taping mantendo a corda
Levantada junto com o taping.

** - ALAVANCA
e--------------------------------------------
b--------------------------------------------
g-------2----4----4*-~~-16----4*----9---4*----4-2~~**
d-2-4----4—B1-B1----T------b1—T—B1------------
a--------------------------------------------
e--------------------------------------------

ALAVANCAR EM TODOS
e--------------------------------------------
b--------------------------------------------
g—6*-7*-9*---------------------------
d--------------------------------------------

e--------------------------------------------
b-------10-----12~~--12----12-10—12~~
g---11-----11-B1------B1-----------B1/4-
d--------------------------------------------

e------------------------------14-17~~14-----
b--~12--12--10-10/14--17------------------
g----B1----------------------------------------
d--------------------------------------------

e------------17~~--14-----14-17-19---17-19-19~~
b--17-14---------~-----17-----------------------B1--
g---------------------------------------------------------

FIM:) 

Davi Sacer

DAVI SACER
MINH´ALMA TE DESEJA – DAVI SACER

2:17

e-------------------------
b-------------------------
g--7-7/12~~~~---------
d-------------------------
a-------------------------
e-------------------------

e------------------5--3-----
b---------5-5/3--3---3-----
g—3/6----------------------
d-------------------------
a-------------------------
e-------------------------

e----m-------------------
b-3-5--3-3-5-5---------
g-----------------~5/2~~~~
d-------------------------
a-------------------------
e-------------------------

4:09

e-------------------------
b-------------------------
g—9/12-11--9-7~~~~
d-------------------------
a-------------------------
e-------------------------

e-------------------------
b-------------------------
g-8/11-9-7-6------m---
d-----------------7-9-7~~
a-------------------------
e-------------------------

e-----------------m--------12/17~~~~
b------------10-12-10----10-----------
g-6/9~~~~------------------------------
d-----------------------------------------
a-----------------------------------------
e----------------------------------------

e-11/15-14—11/15-14--------------------
b-------------------------15/17--15---------
g----------------------------------------------
d----------------------------------------------
a----------------------------------------------
e----------------------------------------------

e----------------------------------------------
b-----15-17-17/19—15/17-13/15~~~~~~
g-14------------------------------------------
d----------------------------------------------
a----------------------------------------------
e----------------------------------------------

e-----------------------------------------------------------
b--------10---8/11---13~~-13/15~~-15/17-17/19~~
g----11---------------------------------------------------
d-12------------------------------------------------------
a---------------------------------------------------------
e---------------------------------------------------------

e-------17~--17---------------
b-------b1--------15/17~~~~
g--14--------------------------
d-------------------------------
a-------------------------------
e-------------------------------

5:47

e------------------------------------
b----------------------------10-----
g--12-11-12~~~~---8/11---11~~
d------------------------------------
a------------------------------------
e------------------------------------


e-----m--------------------
b--8-10-8------------------
g------------7—7~~------
d-------------------------
a-------------------------
e-------------------------

e--------------------------------------------------------
b--~6/8-7-7~~~~----17/19—19----17~~~~-------
g----------------------------------b1/2-----------------
d--------------------------------------------------------
a--------------------------------------------------------
e--------------------------------------------------------

FIM:)

O QUE EU SERIA SEM JESUS – DAVI SACER
INTRO

e-------------------------
b-------------------------
g-2/4-4---4-5~~~~------
d-------------------------
a-------------------------
e-------------------------

e-------------------------
b-------------------------
g--2/4--4-5-------------
d-------------------------
a-------------------------
e-------------------------

e-------------------------
b-------------------------
g------------------------
d---2/5-5-4------------
a-------------------------
e-------------------------

e-------------------------
b-------------------------
g-------------------------
d-5-5/7—7/4~~~~----
a-------------------------
e-------------------------

e-------------------------
b-------------------------
g-2/4-4---4-5~~~~------
d-------------------------
a-------------------------
e-------------------------

e-------------------------
b-------------------------
g--2/4--4-5-------------
d-------------------------
a-------------------------
e-------------------------

e-------------------------
b-------------------------
g------------------------
d---2/5-5-4------------
a-------------------------
e-------------------------


e-------------------------
b---8-8/10—7~~~~~~
g------------------------
d------------------------
a-------------------------
e-------------------------

2:24 RIFF

e-------------------------
b--13---10-10~~-------
g------------------------
d-------------------------
a-------------------------
e-------------------------

e--8-----------------------
b--10----8----------------
g-----------6/9-7~~------
d-------------------------
a-------------------------
e-------------------------

e-------------------------
b-------------------------
g--5-----5/7~~~~~~--
d-----7--------------------
a-------------------------
e-------------------------


RIFF

e-------------------------
b-------------------------
g—4/8-8-9~~~~-------
d-------------------------
a-------------------------
e-------------------------

e-------------------------
b-------------------------
g-~3/6-6—6/8~~~~~~
d-------------------------
a-------------------------
e-------------------------

FIM:)

Quando eu te adoro - DAVI SACER - SOLO

4:35

e-------------------------
b-12-12--15-----15-15-15~~
g------------------b1-b1-b1-
d-------------------------
a-------------------------
e-------------------------

e------m------------------
b-12/13-12----------------
g-------------14-12-11~~~
-------------------------
a-------------------------
e-------------------------

e---------------------------------------------
b----------9---9-~~-~8-------------8------
g----9-----b1-b1--------9--7----9----9~~
d--9---9------------------------9----------
a-------------------------------------------
e-------------------------------------------

e-----------------------------------------10-10-12-12
b------------------------10-10-12-12------------------
g-9-9--11-11-12-12-----------------------------------
d---------------------------------------------------------
a---------------------------------------------------------
e---------------------------------------------------------

e-15-15—18~~~~
b-----------b1-----------
g-------------------------
d-------------------------
a-------------------------
e-------------------------

e-19-17-15--17----17---17~~
b--------------b1/4-b1/4------
g-------------------------
d-------------------------
a-------------------------
e-------------------------

e--------15-14-12----------12-----------
b-9/12--------------15-12-----15-15-15--
g---------------------------------b1-b1-
d---------------------------------------
a---------------------------------------
e---------------------------------------

e-------------------------
b------------------------
g-14-14-14------------
d-b1-b1-b1-------------
a-------------------------
e-------------------------

e------------------------------------------
b-12----------------12-------------------
g-----12--14-12--------12------12-----
d------------------------------14-----14-
a------------------------------------------
e------------------------------------------

* - fazer meia pestana na casa 12 e taping
(t) -taping
(m) - martelar

e-----------------*12/17-12--------
b-*12/17-12--15---t------*12/15-
g--------t-------m----------------m--
d-------------------------
a-------------------------
e-------------------------

e-----------------*12/17-12------------
b-*12/17-12--15---t------*12/15--12-
g--------t-------m----------------m--
d-------------------------
a-------------------------
e-------------------------

e-----------------------------------------------
b-12-17--15-14-15-17-----12-15---15~~~
g---------------------------------b1—b1------
d------------------------------------------------
a------------------------------------------------
e------------------------------------------------

vem com tua gloria

e------------------------------------
b------------10-12~~~~----------
g--9-11-12------------------------
d------------------------------------
a------------------------------------
e------------------------------------
FIM:)

Abundância de Alegria – Davi Sacer
Intro:

SOPRO ADAPTADO A GUITARRA

e-----------------------------------------------
b----------------------------------------------
g-11-11-11-9----------9-10-12--------------
d----------------12--9--------------------------
a-----------------------------------------------
e-----------------------------------------------


e-----------------------------------------------
b----------------------12--10-10-10---------
g--9-11-12--11--12--------------------------
d-----------------------------------------------
a-----------------------------------------------
e-----------------------------------------------

e-----------------------------------------------
b------------------12-------------------------
g-11-12-14-14-----------------------------
d-----------------------12---------------------
a-----------------------------------------------
e-----------------------------------------------


e-----------------------------------------------
b------------------12--10---------------
g-12-11-9--12--------------------------------
d-----------------------------------------------
a-----------------------------------------------
e-----------------------------------------------

fim:)

DEUS NÃO FALHARÁ - DAVI SACER

3:49

e-----10/12~~~10-9-------------------------
b-10--------------------10/12-12/14--------
g---------------------------------------13/9--
d--------------------------------------------5/9~~~~
a-----------------------------------------------
e-----------------------------------------------

e--------------------------------------
b----10----10/14-14/15-15/12-----
g--9----9-----------------------------
d--------------------------------------
a--------------------------------------
e--------------------------------------

e-----------------------------------
b---9-10-10/12-12/14-14/10---
g-9--------------------------------
d----------------------------------
a----------------------------------
e----------------------------------

e------------16-17-19-21~~
b15-17-19------------------
g-----------------------------
d-----------------------------
a-----------------------------
e-----------------------------

e--------------------------------------------------------------
b---------------------------------------------------10-12~~
g-------------------------------7-9-11--9-11-13-----------
d----------7-9-11---7-9-11---------------------------------
a--7-9-11----------------------------------------------------
e--------------------------------------------------------------

e-------11/14-----14/16--17-17~~~~
b-10--------------------------------------
g------------------------------------------
d------------------------------------------
a------------------------------------------
e------------------------------------------

FIM:)

NOME SOBRE TODO NOME – Davi Sacer – solo

Intro:
e-------------------------
b-------------------------
g-6-7-7/9-9-------------
d-------------7~~-------
a-----------------------------
e-----------------------------

e-------------------------
b-------------------------
g-6-7-7/9-9-------------
d-------------7~~~~----
a-----------------------------
e-----------------------------

e-------------------------
b-------------------------
g-6-7-7/9-9~~---------
d----------------------
a-----------------------------
e-----------------------------

e-------------------------
b-------------------------
g--7/9-7-6------------
d------------7/9~~—7~~
a-----------------------------
e-----------------------------

e-------------------------
b-------------------------
g-6-7-7/9-9~~9/11~~--
d--------------------------
a-----------------------------
e-----------------------------

e-------------------------
b-------------------------
g-6-7-7/9-9-------------
d-------------7~~-------
a-----------------------------
e-----------------------------

e-----------------------------
b---------------m------------
g-9-7/9-7--6-7-6-----------
d--------------------7/9~~7-
a------------------------------
e------------------------------

2:29
e-------------------------
b-------------------------
g-6-7-7/9-9-------------
d-------------7~~-------
a-----------------------------
e-----------------------------

e-------------------------
b-------------------------
g-6-7-7/9-9-------------
d-------------7~~-------
a-----------------------------
e-----------------------------

e-------------------------
b-14-15—15/17~~~~
g-------------------------
d----------------------------
a-----------------------------
e-----------------------------

e----------------------m------------
b-14/17--15---14-15-14---------
g-------------------------------14/16~~
d-----------------------------------
a-----------------------------
e-----------------------------

5:10
e-------------------------
b-------------------------
g-7/9-9~~-7-6---------
d-------------------------
a-----------------------------
e-----------------------------

e-------------------------
b-------------------------
g-7/9-9~~-7-6---------
d-------------------------
a-----------------------------
e-----------------------------

e-------------------------
b-------------------------
g-7/9---7---6—4~~----
d-------------------------
a-----------------------------
e-----------------------------

e----------------------------
b---14/17-17---15-14~~
g----------------------------

e----------------------------
b---14/17-17---15-14~~
g----------------------------
d-----------------------------
a-----------------------------
e-----------------------------

e-------------------------------
b---14/17-17---15-14~~12~~~
g----------------------------
d------------------------------
a-----------------------------
e-----------------------------
FIM:)

MUSICA: FESTA QUEM CANTA: DAVI SACER ALBUM:CD CONFIO EM TI
Intro: 00:00 à 00:27s
RIFF: 1:54
SOLO: 3:08 A 3:32
e ---------------------------------
b----------------------8---------
g-9-97--9-7-9-7-9-------------
d----------------------------------
a----------------------------------
E----------------------------------

e ---------------------------------
b----------------------8----------
g-9-97--9-7-9-7-9------9-7-----
d-------------------------------9---
a----------------------------------
E----------------------------------

e ---------------------------------
b--8-8-8-7-7-8-7---------8--8---
g-------------------7---9---9--9---
d-----------------------9-----------
a----------------------------------
E----------------------------------

Combinações - (intercalar varias vezes nesses
3 estilos – são bem variáveis as contagens
As vezes 4x , 5x, 3x é preciso ter a percepção porque
Dá idéia de duas guitarras juntas, finaliza no acorde

e ---------------
b-8--8--8------
g-9--9--9--------
d-----------------
a-----------------
E----------------

e ----------------------
b----8--8--8--8--8---
g----7--7--7--7--7---
d----------------------
a-----------------------
E----------------------

e -------------------
b-------7-7-------
g-------7-7--------
d-------------------
a-------------------
E-------------------

ACORDE FINAL
e ---------------------------------
b----------------------------------------
g-9~~--------------------------------
d-9~~---------------------------------
a-7~~---------------------------------
E----------------------------------

RIFF: 1:54
e ---------------------------------
b---7-------------------------------------
g-----9-7---7---7--9----9--9--------------
d----------9---9---------9--9----------
a-------------------------7--7------
E----------------------------------

SOLO: 3:08 A 3:30
e ---------------------------------
b------------------------------
g---------------—7/9~~~7~~--
d---9-10-9-10------------------
a----------------------------------
E----------------------------------

e ---------------------------------
b------------------------------
g-----------------------------
d---9-7-5-7-5----------------
a----------------7-3/5~~---
E-------------------------------

e --------14-15-14----------15--------------10---------------
b----15------m------17-15----15-13--12---------10-------
g----------------------------------------------------11---------
d----------------------------------------------------------------
a----------------------------------------------------------------
E----------------------------------------------------------------

e ------------------------------
b----10-8-------------------------
g-----------10------------------
d---------------10-------------------
a--------------------12-10-12~~----
E----------------------------------------

e ------------------------------------------------
b-------------------------------------------------
g------------------------------------------------
d--9-7-5----7-5------------------------------
a---------9-------9-7-5-7-10---7-10-~7--
E-----------------------------m------m---------

e -----------------------b1/2-----------------------------------------------------
b----------------------~12----12-10----------------------------------------------
g----------------------------------------12-11-12-11-9-----------------------------
d------7-9-10~~~~--------------------------------------12-9-11-7~~--9-11~~-
a---7---------------------------------------------------------------------------------
E------------------------------------------------------------------------------------

e --------------------------
b----------------------------
g-----------------------------
d--7-9-10-~~--10-12-------------------------
a--------------------------8>>>>> alavanca
E----------------------------------------------------

FIM

Ctmdt

CTMDT

Não Haverá Limites - CTMDT


e-12-----12--10-----10----------------10-------------------------
b-----10----------10-----12----10-12-----12-10-12--10---------
g--------------------------------------------------------------11-9---
d----------------------------------------------------------------------
a------------------------------------------------------------------
e------------------------------------------------------------------


e-12-----12--10-----10----------------10--------------
b-----10----------10-----12----10-12-----12-10-12--10---------
g--------------------------------------------------------------11-9---
d------------------------------------------------------------------
a------------------------------------------------------------------
e------------------------------------------------------------------


e-12-----12--10-----10----------------10-------------------------
b-----10----------10-----12----10-12-----12-10-12--10---------
g--------------------------------------------------------------11-9--
d------------------------------------------------------------------
a------------------------------------------------------------------
e------------------------------------------------------------------


e-12-----12--10-----10----------------10--------------
b-----10----------10-----12----10-12-----12-10-12--10---------
g--------------------------------------------------------------11-9------
d------------------------------------------------------------------
a------------------------------------------------------------------
e------------------------------------------------------------------
com bateria


e-12-----12--10-----10----------------10--------------
b-----10----------10-----12----10-12-----12-10-12--10---------
g--------------------------------------------------------------11-9------
d------------------------------------------------------------------
a------------------------------------------------------------------
e------------------------------------------------------------------


e-12-----12--10-----10----------------10--------------
b-----10----------10-----12----10-12-----12-10-12--10---------
g--------------------------------------------------------------11-9------
d------------------------------------------------------------------
a------------------------------------------------------------------
e------------------------------------------------------------------


e-12-----12--10-----10----------------10------------------------
b-----10----------10-----12----10-12-----12-10-12--10---------
g--------------------------------------------------------------11-9-
d------------------------------------------------------------------
a------------------------------------------------------------------
e------------------------------------------------------------------


e-12-----12--10------10------------------------------
b-----10----------10-----12----10-12—13-12-------10-12------
g----------------------------------------------------12-----------------9~~-----
d-----------------------------------------------------------------12------
a------------------------------------------------------------------
e------------------------------------------- -----------------------
Parte inferior do formulário
047
riffs

e--------------------------------------
b-------------------------10-12------
g---9999—99—9--9---------------
d--------------------------------------
a--------------------------------------
e--------------------------------------

e---------------------------------------
b-------------------------10-12-------
g---9999—99—9--9----------------
d---------------------------------------
a---------------------------------------
e---------------------------------------

e--------------------------------------
b-------------------------10-12------
g---9999—99—9--9---------------
d--------------------------------------
a--------------------------------------
e--------------------------------------

e---------------------------------------
b---------------------------------------
g---9999—99—9--9----------------
d---------------------------------------
a---------------------------------------
e---------------------------------------

0:58 - riff

e--12----10-------------------------------
b-----------12--10-------------------------
g---------------------12--9----------------
d-------------------------------------------
a-------------------------------------------
e-------------------------------------------

1:09 riff
e-------10------10-------12--------------
b---12------12------12-------------------
g-------------------------------------------
d-------------------------------------------
a-------------------------------------------
e-------------------------------------------


1:11

e--7--------------------7---------------
b-----8-------------------8-------------
g--------9-7-----------------7~~-------
d-------------10-9----------------------
a----------------------------------------
e----------------------------------------

1:17
e---------7-----------------7-8-------------
b-----------8------------8------10~~------
g--------------9--7---9--------------------
d-------------------------------------------
a-------------------------------------------
e-------------------------------------------

1:23

e-----7--7-----------------7-7----------------
b-----------8-------------------8-8-----------
g--------------9--7-------------------7~~----
d-------------------10-9----------------------
a----------------------------------------------
e----------------------------------------------

1:29

e---------7-----------------7-8----------------
b-----------8------------8------10~~---------
g--------------9--7---9------------------------
d------------------------------------------------
a----------------------------------------------
e----------------------------------------------

1:58
e----------------------------------------------
b----------------------------------------------
g----------------------------------------------
d----5---4-2---0--2-2--5-2-2-2------------
a--5-------------------------------------------
e----------------------------------------------

2:02
e-------------------------------------------
b-------------------------------------------
g-------------------------------------------
d----------4---------------------------------
a----5-5-----5------------------------------
e-------------------------------------------

2:05
e-------------------------------------------
b-------------------------------------------
g-------------------------------------------
d-------------2------------------------------
a-----3-3--------3-3-3---------------------
e-------------------------------------------

2:08

e-------------------------------------------
b-------------------------------------------
g-------------------------------------------
d-------------------------------------------
a---0-0--3--0-------------
e-------------------------------------------

2:10

e-------------------------------------------
b-------------------------------------------
g-------------------------------------------
d----5---4-2---0--2-2--5-2-2-2-------
a--5-----------------------------------------
e-------------------------------------------


2:20
e-------------------------------------------
b-------------------------------------------
g-------------------------------------------
d-----------------5-5---------5-7---------------
a--0-0---5--0---------5--0-------5-----------------
e-------------------------------------------

2:24

e--7--------------------7--------------------
b-----8-------------------8-------------------
g--------9-7-----------------7~~-----------------
d-------------10-9-----------------------------
a-------------------------------------------
e-------------------------------------------

e---------7-----------------7-8----------------
b-----------8------------8------10~~--------------
g--------------9--7---9------------------------
d-------------------------------------------
a-------------------------------------------
e-------------------------------------------

ACORDES WAHA..........

3:35
e----------8-7-5-5--------8-7---------------------
b---------------------------------8-8---------
g---4/7--------------4/7--------------------------
d-------------------------------------------
a-------------------------------------------
e-------------------------------------------

e---------8-7---------------------------------
b--------------10-----------------------------
g—4/7-----------------------------------------
d-------------------------------------------
a-------------------------------------------
e-------------------------------------------

e-------------------------------------------
b--------8--7---------------------------------
g-----7------7------9-7------7-------7---9---------
d--7------------7--------7-9---9---7-------10-------
a-------------------------------------------
e-------------------------------------------

e-------------------------------------------
b----------13-------15--15-13-15-------
g---------------12—B1-------------------
d---9/12----------------------------------
a-------------------------------------------
e-------------------------------------------

e-------------------------------------------
b--15--13---12--13-12-------------------
g---------------------------14~~-------------
d-------------------------------------------
a-------------------------------------------
e-------------------------------------------

3:53
e----------------------------------------------------10---------------
b----12-11-10-----11-12-11--10-11--12--13------13-12-13-----
g----------------12---------------------------
d-------------------------------------------
a-------------------------------------------
e-------------------------------------------

e--10--------------------------10---------------10-12-14---
b-------13-12--10--12-13-------13-12--13----------------
g----------------------------------------------------------------
d----------------------------------------------------------------
a----------------------------------------------------------------
e----------------------------------------------------------------

e---15---------14----------12----------10---
b-------13-12------12-10-----10-8---------
g----------------------------------------------
d-------------------------------------------
a-------------------------------------------
e-------------------------------------------

e------------------------------------
b--12-13-12------------------------
g--------------12------------------------
d-------------------12-10-9--------------
a-------------------------------10/12~~~~
e-------------------------------------------
Fim:)


Com. Zona Sul

COM. ZONA SUL
DEUS DA MINHA SALVAÇÃO - COM ZONA SUL

intro
e----------------------------
b----------------------------
g------9-9~~-9------------
d----9----------------------
a----------------------------
e----------------------------

e-----------------------------
b------------------------------
g------9-9~~-9------9-9~~-
d----9-------------10---------
a------------------------------
e------------------------------

e--------------------------------------
b----------------------9---10--10---
g—6/9-11-9-11~~-----------------
d--------------------------------------
a--------------------------------------
e--------------------------------------

e-----------------11-11/12~~-----
b-6/9--12-9-12--------m-----
g-----------------------------
d-----------------------------
a----------------------------
e----------------------------

1:45-2:06

e-----------------------------
b------------------------------
g------9-9~~----------9-9~~-
d----9-----------9--10---------
a------------------------------
e------------------------------

e-----------------------------
b--------------------------10----
g------9-9~~----------9-9~~9-9
d----9-----------9--10---------
a------------------------------
e------------------------------

e-------------------------------------
b----------------------9---10--------
g—6/9-11-9-11~~-----------9----
d--------------------------------------
a--------------------------------------
e--------------------------------------

e-----------------11-11/12~~--
b-6/9--12-9-12--------m------
g--------------------------------
d--------------------------------
a--------------------------------
e--------------------------------

riff 2:07-2:15

e-----------------------------
b-----------------------------
g-------------11-9----------
d--6-6/9-9----------9------
a----------------------------
e----------------------------

e-----------------------------
b------------------------------
g-------------11-9-----------
d--6-6/9-9----------9/11----
a------------------------------
e------------------------------

riff 3:47-3:50
3:55-3:58


e-----------------------------
b------------------------------
g------------------------------
d-----------------------------
a--3-5-7-5-3----------------
e---------------3-------------

riff 6:11
e--------------12-------12-------12-------12-------12-------12------12---
b—12~~12------12-------12-------12-------12-------12-------12------
g----------------------------------------------------------------
d----------------------------------------------------------------
a----------------------------------------------------------------
e----------------------------------------------------------------

FIM:)

AGNUS DAY - SOLO - com. zona sul

e------------------------------------------------------------
b---2/5~~-6-8—6/8-8--------2/5~~-6-8—6/8---12-13-13--
g--------------------------5---------------------------------
d--------------------------5---------------------------------
a--------------------------3-------------------------------
e--------------------------3--------------------------------

e-----------------------------------------------------
b-12-10—10/12---10-8-8/10--8-6—6/8~~----
g----------------m-------------m---------m-----5--
d--------------------------------------------------5--
a--------------------------------------------------3
e--------------------------------------------------3

044
e------------------------------------------------------------
b---2/5~~-6-8—6/8-8~~~~--2/5~~-6-8—6/8---12-13-13--
g-----------------------------------------------------------
d-----------------------------------------------------------
a---------------------------------------------------------
e----------------------------------------------------------

e------------------------------------------------
b-12-10—10/12---10-8-8/10--8-6—6/8~~-
g----------------m-------------m---------m----
d-------------------------------------------------
a-------------------------------------------------
e-------------------------------------------------

1:08

e------------------------------------------------------------
b---2/5~~-6-8—6/8-8~~--2/5~~-6-8—6/8---12-13-13--
g-----------------------------------------------------------
d-----------------------------------------------------------
a---------------------------------------------------------
e----------------------------------------------------------

1:23

e--------------15-------------------------
b-13-15-15------15--15—15-13-15~~
g------m--b1------b1-b1------------b1-
d------------------------------------------
a------------------------------------------
e------------------------------------------

1:30

e-----12-12/13-12~~--12-----------------------
b-13---------m--------------15-13-13/15-15~~
g------------------------------------------m-------
d---------------------------------------------------
a---------------------------------------------------
e---------------------------------------------------

adicional para completar a melodia
eu vou postar aqui mas não ta no CD essa parte
seria somente a voz.

e-----------------------------------------
b-15-17-15-13------15-17-15-13------
g-----------------14-----------------14--
d------------------------------------------
a------------------------------------------
e------------------------------------------

e------------------------------
b-----------13------13~~~~
g--14--16------16------------
d-------------------------------
a-------------------------------
e-------------------------------

FIM:)

Com. Nilopolis

Com. Nilopolis
AQUELE QUE ESTÁ FELIZ
INTRO SAX~

0:05 – 0:15

e-10-12~~~10-9-10-10-9-----9------------
b------------------------------12---------------
g------------------------------------9-9--------
d---------------------------------------------
a---------------------------------------------
e---------------------------------------------


e—~12~~--10-9-10-9-10-12-9~~-------
b---------------------------------------------
g---------------------------------------------
d---------------------------------------------
a---------------------------------------------
e---------------------------------------------

0:38
e---------------------------------------------
b------10;~~~~-----------------------------
g----------------9-10-11~~-----------------
d---------------------------------------------
a---------------------------------------------
e---------------------------------------------

047
e-----10~~9--------9-10-12-12------------
b------------12~~---------12-12------------
g---------------------------------------------
d---------------------------------------------
a---------------------------------------------
e---------------------------------------------

054-1:09

e------9-7-------~9-10~~-9-7---9-10--12--12----------------------
b-----------10~~------------------------------12—10~~-------------
g------------------------------------------------9-----------~9-10-11-
d----------------------------------------------------------------------
a----------------------------------------------------------------------
e----------------------------------------------------------------------


e-----------10~~-9-7---9-10--12--12--------------------------
b-------------------------------------12—10~~-----------------
g-------------------------------------9-----------~9-10-11-----
d-----------------------------------------------------------------
a-----------------------------------------------------------------
e----------------------------------------------------------------

1:18-1:27

e------9-7-------~9-10~~-9-7---9-10--12--12--------
b-----------10~~------------------------------12—-----
g------------------------------------------------9--------
d---------------------------------------------------------
a--------------------------------------------------------
e-------------------------------------------------------

FIM:)

Cleidimar

CLEIDIMAR
VEM SENHOR - CLEIDIMAR

e---b1----b1~~b1----------
b--17-17-17~~-17---------
g------------------------------
d-----------------------------
a----------------------------
e----------------------------

e---b1-b1--------------
b- 12~~-12------------
g-------------------------
d-------------------------
a-------------------------
e-------------------------

e-------b1--12---b1--------
b--10-12---------12---------
g------------------------------
d-----------------------------
a----------------------------
e----------------------------

e-----------------------------
b--10--------------12~-12~~---
g-------11--10-9-----------
d----------------------------
a----------------------------
e----------------------------

...2 parte
e---b1—b1-------------------------10/14-12~~
b---12--12-~~~14-12-10-12~~---------------
g--------------------------------------------------
d--------------------------------------------------
a--------------------------------------------------
e--------------------------------------------------

e--16--17--16--------------------------------19~~
b--17--17--17---17------17/19/17~~~--b1/4--
g----------------------16--------------------------
d---------------------------------------------------
a---------------------------------------------------
e---------------------------------------------------

e---------------------12-----12-------------------
b--14--12-------14-----14------12-12---------
g------------14---------------------------9-------
d--------------------------------------------------
a--------------------------------------------------
e---------------------------------------------------

e------------------------------------------------
b-9-10-9---------------------------------------
g---------------9/11—11/6—6/2—2/4~~--
d-----------9-----------------------------------
a------------------------------------------------
e------------------------------------------------

FIM:)

Celina Borges

CELINA BORGES
TUDO POSSO - SOLO

+ alavanca
e-----------------------------------------------
b----------------------------------------------
g-5/8-8-8-8~~-~9/12-12--12-10-10------
d-----------------------------------------------
a-----------------------------------------------
e-----------------------------------------------

e-----------------------------------------------
b-----------------------------8-6--------------
g-6/8-7----4-4-4---4-5-7--------------------
d--------5--------------------------------------
a-----------------------------------------------
e-----------------------------------------------


e-7-8-10-8-7-8-10------ USAR LIGADO
b----------------------------------------------
g-----------------------------------------------
d-----------------------------------------------
a-----------------------------------------------
e-----------------------------------------------

e--7-10-8--7-10--------------------------
b------------------8-8+-8+---8/12+--15-15-
g-----------------------------------------------
d-----------------------------------------------
a-----------------------------------------------
e-----------------------------------------------

e-----------------------------------------------
b----------------------------------------------
g-14-14--10-10-----10------10/12-12~~
d------------------12------12----------------
a-----------------------------------------------
e-----------------------------------------------

e-----------------------------14--15-14~~
b----------------13--11-13------m--------
g-11-12--14----------------------------------
d-----------------------------------------------
a-----------------------------------------------
e-----------------------------------------------

e------------------------------------
b-15-13--15----15--13-15~~~~
g-----------b1---------------------
d-----------------------------------
a-----------------------------------
e----------------------------------

cd diamante lapidado

FIM:)

DERRAMA O TEU AMOR AQUI

e-19~~~~--------------------
b------------------------------
g------------------------------
d-----------------------------
a----------------------------
e----------------------------

e-----------------------------------------
b-7/12~~--~10-8---7-87-------------
g----------------------------9-7----------
d--------------------------------10-9---
a----------------------------------------
e-----------------------------------------

e-------15-14~~~~-12-10-12—10-12-10~~----------
b-8/12-------------------------------------------8-10-8---
g------------------------------------------------------------
d------------------------------------------------------------
a-----------------------------------------------------------
e-----------------------------------------------------------

e-------15-14~~~~-12-10-12—-17-17--15------------
b-8/12-----------------------------------b1---------------
g------------------------------------------------------------
d------------------------------------------------------------
a-----------------------------------------------------------
e-----------------------------------------------------------

e--14-15-14-------------------------
b-------m----17-15------------------
g-----------------------14-16-12----
d--------------------------------------
a---------------------------------------
e----------------------------------------

e----------------------------------
b----------------------------------
g----------------------------------
d--14-12-10-9-10-9~~~4/9~~
a----------------~m--------------
e----------------------------------

FIM:)


Casa de Davi

CASA DE DAVI
DIGNO É O CORDEIRO - CASA DE DAVI

0:33

e—-------------------|-----------------|--------------------------------
b- b1-b1b1----------|---------12-12-|------------m-----------------
g-11--11-11-11----|--9-11----------|--9-11--8-9-8---------------
d---------------------|------------------|----------------9/11-9 -9-11-11~~
a---------------------|------------------|------------------------------
e---------------------|------------------|------------------------------

043
e-----------------------------------------------------
b-------------------------------9-12----------------
g-----------------9-911-11------------------------
d-------9-9--11------------------------------------
a-9-11---------------------------------------------
e---------------------------------------------------

054
e---b1-----19-19------15/17-16-17-16---------b1/4-----b1/4-----
b--19------b1-----------------------------17/19---19—19--19--19-
g---------------------------------------------------------------
d---------------------------------------------------------------
a--------------------------------------------------------------
e---------------------------------------------------------------

e------------------------------------------------------
b--10—10/12-10--9-10-9---------------------------
g-------------------------------9-9/11---9-9~~~~-
d------------------------------------------------------
a-----------------------------------------------------
e----------------------------------------------------

e-----------------
b------m----------
g---4-6—4~~~~--
d--------------------
a-------------------
e------------------

FIM:)

Coração igual ao teu – casa de davi

3.38-405
e-------------------------------------
b---15~~15~~~~----------------------
g---~b1—b1---------------------------
d---------------------~9/14—12~~~~
a-------------------------------------
e-------------------------------------

4.09-4-17
a-------------------------------------
b-------------------------------------
g—12-14-14~~~~--16----------------
d---------------------------12-10-9~~~--
a-------------------------------------
e-------------------------------------

4.20-424
a----------------------------------------15-15---12-12----12~~-
b---13~~-13---10--10------10--13---------------------------
g---b1-------------------------------------------------------------
d----------------------------------------------------------------
a----------------------------------------------------------------
e----------------------------------------------------------------

424-429
a-------------------------------------
b-------------------------------------
g---12-10-9--~~~~------9/12~~--
d----------------------10-------------
a-------------------------------------
e-------------------------------------
429.432
a----------15---------------------------
b--13-12----------------------------------
g------------------------------7/9-9------
d-----------------12-12--10------------
a-------------------------------------
e-------------------------------------

432-436
a-------------------------------------
b-------------------------------------
g--9-~~--~9-9-7-5-5-~~-7-5-4~~-
d-------------------------------------
a-------------------------------------
e-------------------------------------


~436-440
a-------------------------------------
b-------------------------------------
g------------6/9-7-5-6/9~~-------
d--~7-5-7---------------------------
a-------------------------------------
e-------------------------------------

~4.40-45
a------------------------12-15------------15---------
b------------------15----------15-13-15-----15---15~-15~~
g-6/9-7-5--------b1------------------b1------b1------
d----------7~~---------------------------
a-------------------------------------
e-------------------------------------

445.449
a------------------15--------------15-15-17-17-15-15---
b--15---13--15------15-13--13--------------------
g--------------b1--------------------
d-------------------------------------
a-------------------------------------
e-------------------------------------


a-------15~~-------15-----15-----15---------
b---17--------~17-----17-----17-----17/15~~-15-----
g-------------------------------------
d-------------------------------------
a-------------------------------------
e-------------------------------------

454.458
a-------------------------------------
b-15-15—15~~-15---15-13~~---
g-b1-------b1----b1-----------------
d-------------------------------------
a-------------------------------------
e-------------------------------------

5.18-5.39
a-12-13-15/17~~~~----------12-13-15/17~~~19-20-20-
b------------------~15/17-~~---------------------------------
g-------------------------------------
d-------------------------------------
a-------------------------------------
e-------------------------------------


a-------------------------------------
b----------------13-12---13-13~~~~-------
g-9-10-12/14----------------------------------
d-------------------------------------
a-------------------------------------
e-------------------------------------


FIM:)

Carlinhos Felix

CARLINHOS FELIX- BASTA QUERER

2:04
e-----------------------------
b-B1-------5/8~~----------
g-7---7--5------------------
d----------------------------
a----------------------------
e----------------------------

e----------------------------
b---B1---------------------
g---7---7-5-7-------------
d-------------m--5/7~~---
a----------------------------
e----------------------------

e---------------------------------8-------------------------
b-----------------------------------------------------------
g--------5-7----7--7---7~~~----7--7---5--5—5~~----
d—4/7---------b1-----b1--------b1-------b1-----------
a-----------------------------------------------------------
e-----------------------------------------------------------

e-----------------------------------------------------
b--------------10--11—7/10-----------------------
g----6/9--12-------b1--------12-------------------
d-----------------------------------10~~~~--------
a-----------------------------------------------------
e-----------------------------------------------------

e--------------------------------------------------------------------
b------13-15-15-15--15----17--17--17--17--17--17----------
g--14----------b1-----b1----b1--------b1-------b1-----12~~--
d-------------------------------------------------------------------
a--------------------------------------------------------------------
e--------------------------------------------------------------------

e------------------------------
b-13-13--12-13-12~~~~--
g-b1----------m--------------
d------------------------------
a------------------------------
e------------------------------
LEGENDAS:
b1 = bend um tom
m = "martelar" com o dedo sem palhetar
/ = slide
~~~~ = vibrar a corda com dedo ou deixar soar um tempo

FIM:)

REINA EM MIM – CARLINHOS FELIX

2:03

e----------------------------------
b-10/13—10/12----------------
g-------------------10/12-------
d---------------------------------
a---------------------------------
e---------------------------------

e---------------------------------
b---------------------------------
g-12/14-14/9—9~~---------
d---------------------------------
a---------------------------------
e---------------------------------

e---------------------------------
b---------------------------------
g---------------------------------
d-10/12-8/10-7/9—10~~~~~
a---------------------------------
e---------------------------------

e---------------------------------
b-10-12-13-8/12--8--10--------
g---------------------------------
d---------------------------------
a---------------------------------
e---------------------------------

e---------------13--------------
b-15~~-~15------15—15~~15-
g-b1-------b1-----b1--------------
d---------------------------------
a---------------------------------
e---------------------------------

e-------------------------15-15----------------15-15
b-----12-13-13-12-13----------13-13-12-13--
g-14-----------------------------------------------
d---------------------------------------------------
a---------------------------------------------------
e---------------------------------------------------

e-13-12---------------------------
b---------15-13-12---------------
g----------------------14---------
d---------------------------------
a---------------------------------
e---------------------------------

e-----------------15-15------------------15-15
b-13-13-12-13---------13-13-12-13--------
g------------------------------------------------
d------------------------------------------------
a------------------------------------------------
e-----------------------------------------------

e-18-15-18------------------------------
b-------------18-17-15------------------
g------------------------------------------
d------------------------------------------
a------------------------------------------
e------------------------------------------

e---------------------15-15--
b-12-13-13-12-13------------
g---------------------------------
d---------------------------------
a---------------------------------
e---------------------------------

e-----------------15------13-12-----------------
b-13-13-12-13-----12----------15-15-13-13--
g---------------------------------------------------
d--------------------------------------------------
a--------------------------------------------------
e--------------------------------------------------

e--------------------------------------------
b--------------------------------------------
g-17---14--14-14----14---12-12-12----
d--------------------------------------------
a-15—12--12-12----12---10-10-12----
e--------------------------------------------

e-------------------------15-15----------------15-15
b-----12-13-13-12-13----------13-13-12-13--
g-14-----------------------------------------------
d---------------------------------------------------
a---------------------------------------------------
e---------------------------------------------------


e-13-12---------------------------
b---------15-13-12---------------
g----------------------14---------
d---------------------------------
a---------------------------------
e---------------------------------

e-----------------15-15------------------15-
b-13-13-12-13---------13-13-12-13------13--
g------------------------------------------------
d------------------------------------------------
a------------------------------------------------
e-----------------------------------------------

e-15-13-12-------------17~~~~~~
b-------------15-13-12------------------
g------------------------------------------
d------------------------------------------
a------------------------------------------
e------------------------------------------

e--15--13-12-13--15-15-15----------
b------------------------15--15—13~~
g-------------------------b1-b1-------bend só nesta corda
d----------------------------------------
a----------------------------------------
e----------------------------------------

___________________________
por Samuel

e---------------13--------------
b-15~~-~15------15—15~~15-
g-b1-------b1-----b1--------------
d---------------------------------
a---------------------------------
e---------------------------------


aki to quase pegando ele todo
mais achei um pouco estranho essa parte aki
me fala o conceito de b1 ai fazendo favor
vlw
_____________
Por Rosane
b1 significa bend de um tom
voce levanta só o bende de cima e o de baixo segura

FIM:)

Bola de Neve

BOLA DE NEVE
Verdadeiro adorador - Bola de neve

1:41 –
e---------------------------------------------------------
b---------------------------------------------------------
g--10-10-10-10-10-9-7------------------------------
d---------------------------8-8-8-8-8-8--10-10/12~~~
a---------------------------------------------------------
e---------------------------------------------------------

e---------------------------------------------------------
b---------------------------------------------------------
g-------------------------------------------------------------
d--10-10-10-10-10-8-7—8/10-10-10-10-10-12-12/14~~
a-------------------------------------------------------------
e---------------------------------------------------------

T – TAPING
B1 – BEND
Neste trecho fazer o bend na casa 8 e dar o taping
Com a corda levantada no bend
(*) abaixar a corda para sair do bend

e-------------|------------------------------------------
b--------6-8-|-8---10---8----10—8/8*---6---------
g--5-7-------|-b1---T---b1—T –b1-----------------
d---------------------------------------------------------
a---------------------------------------------------------
e---------------------------------------------------------


m – martelar
e--------10---------------------------------------------------
b------------10---13--13-10--------------------------------
g--12--------------b1----------12---12-10—12-----------
d—b1---------------------------b1/2----------m-----------
a-------------------------------------------------------------
e--------------------------------------------------------------

e---------------------------------------------------------
b----------15--17----17-----17-17-15-14--14-13---
g—11/14------b1/2------------------------------------
d--------------------------------------------------------
a--------------------------------------------------------
e--------------------------------------------------------

e--------------------------------------------------------
b--------------------------------------------------------
g----------10-------------10------------------------
d--12-10-----12-11-10-----12--10-----10-
a---------------------------------------12-----
e--------------------------------------------------

e-------------------------------------15~~-----
b-----------------------8-10-13-----b1--------
g-----------3/5-7--10--------------------------
d---6-5-3---------------------------------------
a--------------------------------------------------
e--------------------------------------------------

e--~15---13---13/15-----------------------------
b--------------------m----------- ------------------
g--------------------------------------------------
d--------------------------------------------------
a--------------------------------------------------
e--------------------------------------------------

e----13/17~~~~-18-17-15---------15-13---------
b------------------------------18------------15-13--
g----------------------------------15-----------------
d--------------------------------------------------------
a--------------------------------------------------------
e--------------------------------------------------------

e-13-10--------10-8-------8-------------------------------------10--
b--------13-10---------10---10--8---8--6-----6----6—8/10--10--
g-------------------------------------7------7-5---7------------------
d---------------------------------------------------------------------
a---------------------------------------------------------------------
e---------------------------------------------------------------------

e----------------------------------------------------------------------------
b------------------------12—12b -12—12b--12-12b-12-12b-12--12~~
g---12-10-----12-10--12---1/2---------1/2------1/2------1/2----------
d-----------12--------------------------------------------------------------
a---------------------------------------------------------------------
e---------------------------------------------------------------------

1/2 BEND DE MEIO TOM

FIM:)

Bola de neve - church/tribo de louvor - CAIA NA BABILÔNIA

Intro: 0:01 á 0:14 (usado em varias partes da música)


e-----------------7---------------------
b----------------------10--8-7-10----
g---------7------------------------
d---7/9-----9----------------------
a-----------------------------------
e------------------------------------

e-------------------------------
b---------7/10--8-7----7/8~~-
g--6-7-6-------------9--------
d--------------------------------
a--------------------------------
e--------------------------------

e--------------------------------
b--------------------------------
g---6-7-6---6-7-6-------------
d---------------------7—7/9----
a--------------------------------
e--------------------------------

e-----------------7-------------------
b----------------------10--8-7-10--
g---------7---------------------------
d---7/9-----9------------------------
a-------------------------------------
e------------------------------------

e-------------------------------
b---------7/10--8-7----7/8~~-
g--6-7-6-------------9--------
d--------------------------------
a--------------------------------
e--------------------------------

e----------------------------
b--------------10-10-10---
g---6-7-------9----9--9----
d-------------------------
a-------------------------
e-------------------------

Solo: 2:52 á 3:05 – (trecho do solo)

B1=bend

e---------------7--------b1--7—b1--7—b1-b1
b------b1---7----7------10-----10-------10-10-
g—7--9----------------------------------------------
d-------------------------------------------------
a-------------------------------------------------
e-------------------------------------------------

e---7-9-9----9--7--------
b---------b1-------10----
g-------------------------
d-------------------------
a-------------------------
e-------------------------

e--------10--12-12-10--12----
b--12--------b1----------b1-----
g---------------------------------
d---------------------------------
a---------------------------------
e---------------------------------

e-10-12-10-10----10-12-9-9-12-b1----------------
b----------------12------------------12--12-10-10-----
g-----------------------------------------------------------
d----------------------------------------------------------
a----------------------------------------------------------
e----------------------------------------------------------
m =martelar a casa com o (m) segurar nota anterior

e--------------10-10—-----10-10--14—10/12--12-12~~~~
b-----10/12------------12---------------------m---------------
g--------- m ------------------------------------------------------
d------------------------------------------------------------------
a------------------------------------------------------------------
e------------------------------------------------------------------

FIM:)

Beno Cesar

BENO CESAR
O AMOR VOCE E EU
e---------------------------------------------------------
b--9-~~--~8-9----------7/9-8-------------------------
g----------------8-10~~--------------------------------
d----------------------------------6/8-6—8/10—6/8~~
a----------------------------------------------------------
e---------------------------------------------------------

e-------------------------------------------------11~~--
b--------------------8-9-11~~-~9-8-9~~--9-----------
g----------6-8-10-------------------------8--------------
d-6-8-10-------------------------------------------------
a----------------------------------------------------------
e----------------------------------------------------------

e-9-8-9-8—9/16~~~~-15-13-15----13-------------
b--------------------------------------16--16-13-------
g---------------------------------------------------15---
d---------------------------------------------------------
a---------------------------------------------------------
e--------------------------------------------------------

e-------------------------------------------------------------
b-13---------------------------------------------------------
g----15---13------13---------------------------------------
d---------------15-----15--13------------------------------
a--------------------------------15-13----------------------
e-----------------------------------------16-13-16---------

e-------------------------------------------
b-------------------------------------------
g-------------------------------------------
d-------------------------------------------
a--13-----13------------------------------
e------16-----16~~----------------------
Parte inferior do formulário

riff
e-------------------------------------------
b-------------------------------------------
g------10~~~~-8-----8-------------------
d-------------------10---10~~-------------
a-------------------------------------------
e-------------------------------------------
~
riff
e-------------------------------------------------------
b----------------------------6/9~~-8-6-4~~---8-9---
g-------8~~-~8-6-5-6--5------------------------------
d------b1-----------------------------------------------
a------------------------------------------------------
e------------------------------------------------------

riff
e-------------------------------------------
b-16-16~~~~-12/14-13----------------
g-b1—b1-----------------13-------------
d-------------------------------13~~-----
a-------------------------------------------
e-------------------------------------------

e-------------------------------------------
b-------------------------------------------
g----10-10-10---8~~---------------------
d---------b1-------------------------------
a-------------------------------------------
e-------------------------------------------

e-------------------------------------------
b---------------------------8-10-8---------
g----------6-8--6-8--10------------------
d----6-8-----------------------------------
a-------------------------------------------
e-------------------------------------------
FIM:)

Banda Vida Reluz

BANDA VIDA RELUZ
Deus Imenso - solo

e-------------------------
b-8~~~~---------------
g-------------------------
d-------------------------
a-------------------------
e-------------------------

e--19--19---19---1617-16----------------
b—b1---b1-----------------17/19-17~~~~
g----------------------------------------------
d----------------------------------------------
a----------------------------------------------
e----------------------------------------------

e-------------------------
b-------------------------
g-9--2---4-9-4--2-----
d-t--------m t-m--------
a-------------------------
e-------------------------

e-------------------------
b-------------------------
g-9--2---4-9-4--2-----
d-t--------m t-m--------
a-------------------------
e-------------------------

e-------------------------
b-------------------------
g-9--2---4-9-4--2-----
d-t--------m t-m--------
a-------------------------
e-------------------------

e-------------------------
b-------------------------
g-9--2---4-9-4--2-----
d-t--------m t-m--------
a-------------------------
e-------------------------

e-------------------------
b-------------------------
g-9--2---4-9-4—11~~-
d-t--------m t-m--t------
a-------------------------
e-------------------------

e-------------------------
b-------------------------
g-------------------------
d--7-6-7-6---7----------
a------------9------------
e-------------------------

e-------14/16-17--14---
b--14--------------------
g-------------------------
d-------------------------
a-------------------------
e-------------------------

e-------------------------------------------
b-----------------------------------------------
g---------------------------------------7/9----
d------9-11-12-11--9-11-12-11-9----------
a-----------------------------------------------
e-----------------------------------------------

e-------------3------------
b-------------3------------
g---7-9-----4----------------
d-----------5--------------
a-----------5--------------
e----------3---------------

e------------------------------5
b-----------------7-9-10-----5
g---------4-6-9--------------6-
d--4-6-7---------------------7-
a------------------------------7-
e------------------------------5-

FIM:)

Nome Maravilhoso - solo

...............mini acorde usar meia pestana casa 9

e--12---12---
b--------10---
g--------9----
d------------
a------------
e------------

e--9--------------------------------------
b-----12-10-----10-~~~~10-12-9~~~~
g-------------11---------------------------
d-------------------------------------------
a------------------------------------------
e-----------------------------------------

e-------------------9----------------12~~
b--------10—12~~--12--12-10—b1---
g-9/11-------b1-------b1----------------
d------------------------------------------
a------------------------------------------
e------------------------------------------

e--------17---------------------
b--17---------17-17--17------
g—b1---------b1------b1-----
d-------------------------------
a-------------------------------
e-------------------------------

e--17-19-19—19~~-17-16-17-19-----
b----------b1--------------------------17~~
g-------------------------------------------
d------------------------------------------
a-----------------------------------------
e----------------------------------------

e-----------------------------------
b-----------------------------------
g-----2-4---4~~~~~4—2~~~~
d--4--------b1--------------------
a----------------------------------
e----------------------------------

essa música eh do cd Gratidão

FIM:)