terça-feira, 4 de outubro de 2011

MINISTÉRIO VILA IPIRANGA


MINISTÉRIO VILA IPIRANGA

MINISTÉRIO VILA IPIRANGA
MUSICA: Nao posso parar
QUEM CANTA: ministerio ipiranga
ALBUM: Chegou a minha vez
INTRO
solo: 02:45


e---------------------20---------b1-----
b---12/16-15-16-------18~~~21----
g------------------------------------------
d-------------------------------------------
a-------------------------------------------
e-------------------------------------------


e-------------------------------------------
b--21-20-16------------------------------
g--------------15-13-12------------------
d----------------------------15-13-12----
a----------------------------------------15-13-10-8~
e-------------------------------------------


e--------------10-15-13-10-13-10-------
b----------13---------------------------------
g------------------------------------------
d-10-13-----------------------------------
a-------------------------------------------
e-------------------------------------------
e------------------—------15---b1------
b-16-15-b1-----16-18---------18~~~~-----
g---------17---------------------------------
d-------------------------------------------
a-------------------------------------------
e-------------------------------------------


e---------------18-b1-------------------
b--13-15-16------18-18---16----------
g----------------------------------17~~~~-
d-------------------------------------------
a-------------------------------------------
e-------------------------------------------
3.10
e---------------18--18-18—18~~~~~~--
b--13-15-16-------b1-b1--------
g------------------------------------
d------------------------------------
a--------------------------------
e------------------------------