segunda-feira, 17 de setembro de 2012

DIANTE DO TRONO



Canção do Apocalipse    Diante do Trono   

Solo 1:1.49

E|------|-----|-----------------------|----------------------------|
B|------|-----|-----M-----------------|----------------------------|
G|------|-----|-11-12-11~~~-M---------|9-12-11--9-12-11--7-9-7~~~~-|
D|------|9/12~|-------------12-12/14~~|----------------------------|
A|8/12~~|-----|-----------------------|----------------------------|
E|------|-----|-----------------------|----------------------------|

~                                           .......OU......
E|--------------------|-------------------|-----------------------|
B|---------M---M------|-------------------|----8------------------|
G|---5---4-5-4-5—5/7~~|------12-11~~~~~~--|--7---7~~~~~~----------|
D|-5-5-5--------------|-12~~--------------|-----------------------|
A|--------------------|-------------------|-----------------------|
E|--------------------|-------------------|-----------------------|

Solo 2:3.04

E|---------------M----------M-----------|-----------------------|
B|-10~-8~-7~~~-9-10-9-----7/8-7-M---M---|-----------------------|
G|--------------------7-9-------9-7-9~~~|-----------------------|


B|---13---12-12---------~12-13-12-13-15-15~~~~-|------------------------|
G|12---12-------14-12~~------M-----M-B1--------|-11-12-11-12-12/14~~~~--|
D|---------------M---------------------FULL----|-----M-----M------------|

Solo de VIOLAO e teclado:3.33

E|-------|------|---------|-------|---------------|-------------------|-------------|
B|-------|------|---------|-------|---------------|---------10-12-13~~|-10-12-13~~~~|
G|-------|------|---------|-------|--M--------M---|9-9-9-10-----------|-------------|
D|7-9-10-|7-9-10|-10-9-7--|-------|9-10-9---9-10-9|-------------------|-------------|
A|-------|------|-------10|7-10-10|------12-------|-------------------|-------------|
E|-------|------|---------|-------|---------------|-------------------|-------------|

B|--------------|-----------|
G|-13-12-10-----|-9-12-12~~-|
D|---------12~~~|-----------|

fim